ISO-10303-21;
HEADER;
FILE_DESCRIPTION (( 'STEP AP203' ),
    '1' );
FILE_NAME ('BK7-LPBSC-25.4-1064.STEP',
    '2020-12-22T03:14:09',
    ( '' ),
    ( '' ),
    'SwSTEP 2.0',
    'SolidWorks 2020',
    '' );
FILE_SCHEMA (( 'CONFIG_CONTROL_DESIGN' ));
ENDSEC;

DATA;
#1 = CARTESIAN_POINT ( 'NONE',  ( 12.69999999999999929, 12.69999999999999929, 12.69999999999999929 ) ) ;
#2 = VECTOR ( 'NONE', #74, 1000.000000000000000 ) ;
#3 = DIRECTION ( 'NONE',  ( 1.000000000000000000, 0.000000000000000000, 0.000000000000000000 ) ) ;
#4 = CLOSED_SHELL ( 'NONE', ( #186, #37, #290, #156, #305 ) ) ;
#5 = COORDINATED_UNIVERSAL_TIME_OFFSET ( 8, 0, .AHEAD. ) ;
#6 = PERSON_AND_ORGANIZATION_ROLE ( 'design_owner' ) ;
#7 = ORIENTED_EDGE ( 'NONE', *, *, #258, .T. ) ;
#8 = EDGE_CURVE ( 'NONE', #62, #244, #138, .T. ) ;
#9 = CALENDAR_DATE ( 2020, 22, 12 ) ;
#10 = ORIENTED_EDGE ( 'NONE', *, *, #247, .T. ) ;
#11 = APPROVAL_PERSON_ORGANIZATION ( #255, #48, #141 ) ;
#12 = ORIENTED_EDGE ( 'NONE', *, *, #275, .T. ) ;
#13 = PERSON_AND_ORGANIZATION ( #29, #42 ) ;
#14 = ORIENTED_EDGE ( 'NONE', *, *, #21, .F. ) ;
#15 = FACE_OUTER_BOUND ( 'NONE', #190, .T. ) ;
#16 = PLANE ( 'NONE',  #168 ) ;
#17 = ADVANCED_BREP_SHAPE_REPRESENTATION ( 'BK7-LPBSC-25.4-1064', ( #273, #280, #309 ), #88 ) ;
#18 = DIRECTION ( 'NONE',  ( -0.000000000000000000, -0.000000000000000000, -1.000000000000000000 ) ) ;
#19 = LINE ( 'NONE', #121, #78 ) ;
#20 = EDGE_LOOP ( 'NONE', ( #260, #31, #307 ) ) ;
#21 = EDGE_CURVE ( 'NONE', #86, #192, #143, .T. ) ;
#22 = DIRECTION ( 'NONE',  ( 1.000000000000000000, 0.000000000000000000, 0.000000000000000000 ) ) ;
#23 = AXIS2_PLACEMENT_3D ( 'NONE', #153, #154, #3 ) ;
#24 = CARTESIAN_POINT ( 'NONE',  ( 12.69999999999999929, 12.69999999999999929, -12.69999999999999929 ) ) ;
#25 = SECURITY_CLASSIFICATION ( '', '', #108 ) ;
#26 = DIRECTION ( 'NONE',  ( 1.000000000000000000, -2.220446049250312588E-16, 0.000000000000000000 ) ) ;
#27 = LINE ( 'NONE', #24, #67 ) ;
#28 = VECTOR ( 'NONE', #22, 1000.000000000000000 ) ;
#29 = PERSON ( 'UNSPECIFIED', 'UNSPECIFIED', 'UNSPECIFIED', ('UNSPECIFIED'), ('UNSPECIFIED'), ('UNSPECIFIED') ) ;
#30 = APPROVAL_DATE_TIME ( #58, #145 ) ;
#31 = ORIENTED_EDGE ( 'NONE', *, *, #203, .F. ) ;
#32 = CALENDAR_DATE ( 2020, 22, 12 ) ;
#33 = PERSON_AND_ORGANIZATION_ROLE ( 'classification_officer' ) ;
#34 = VECTOR ( 'NONE', #49, 1000.000000000000000 ) ;
#35 = CC_DESIGN_APPROVAL ( #164, ( #25 ) ) ;
#36 = ORIENTED_EDGE ( 'NONE', *, *, #102, .F. ) ;
#37 = ADVANCED_FACE ( 'NONE', ( #118 ), #264, .F. ) ;
#38 = EDGE_LOOP ( 'NONE', ( #10, #267, #214, #237 ) ) ;
#39 = ORIENTED_EDGE ( 'NONE', *, *, #231, .F. ) ;
#40 = VECTOR ( 'NONE', #316, 1000.000000000000114 ) ;
#41 = COORDINATED_UNIVERSAL_TIME_OFFSET ( 8, 0, .AHEAD. ) ;
#42 = ORGANIZATION ( 'UNSPECIFIED', 'UNSPECIFIED', '' ) ;
#43 = DIRECTION ( 'NONE',  ( 0.7071067811865475727, 0.7071067811865475727, 0.000000000000000000 ) ) ;
#44 = APPLICATION_PROTOCOL_DEFINITION ( 'international standard', 'config_control_design', 1994, #288 ) ;
#45 = DIRECTION ( 'NONE',  ( -0.000000000000000000, -0.000000000000000000, -1.000000000000000000 ) ) ;
#46 = DIRECTION ( 'NONE',  ( -0.000000000000000000, 1.000000000000000000, -0.000000000000000000 ) ) ;
#47 = CARTESIAN_POINT ( 'NONE',  ( 12.69999999999999574, 12.69999999999999574, -12.69999999999999929 ) ) ;
#48 = APPROVAL ( #167, 'UNSPECIFIED' ) ;
#49 = DIRECTION ( 'NONE',  ( -0.000000000000000000, -0.000000000000000000, -1.000000000000000000 ) ) ;
#50 = AXIS2_PLACEMENT_3D ( 'NONE', #270, #91, #206 ) ;
#51 = PLANE ( 'NONE',  #50 ) ;
#52 = DIRECTION ( 'NONE',  ( -0.7071067811865474617, -0.7071067811865474617, 0.000000000000000000 ) ) ;
#53 = PRODUCT_DEFINITION_SHAPE ( 'NONE', 'NONE',  #209 ) ;
#54 = CARTESIAN_POINT ( 'NONE',  ( -12.69999999999999574, -12.69999999999999396, 12.69999999999999929 ) ) ;
#55 = PLANE ( 'NONE',  #119 ) ;
#56 = CC_DESIGN_APPROVAL ( #48, ( #209 ) ) ;
#57 = LINE ( 'NONE', #129, #198 ) ;
#58 = DATE_AND_TIME ( #281, #232 ) ;
#59 = DATE_TIME_ROLE ( 'classification_date' ) ;
#60 = ORIENTED_EDGE ( 'NONE', *, *, #149, .T. ) ;
#61 = DATE_AND_TIME ( #286, #136 ) ;
#62 = VERTEX_POINT ( 'NONE', #225 ) ;
#63 = EDGE_CURVE ( 'NONE', #219, #106, #113, .T. ) ;
#64 = EDGE_LOOP ( 'NONE', ( #12, #223, #131 ) ) ;
#65 = DATE_AND_TIME ( #103, #317 ) ;
#66 = CARTESIAN_POINT ( 'NONE',  ( 12.69999999999999574, 12.69999999999999574, 12.69999999999999929 ) ) ;
#67 = VECTOR ( 'NONE', #52, 1000.000000000000114 ) ;
#68 = DIRECTION ( 'NONE',  ( 0.000000000000000000, 1.000000000000000000, 0.000000000000000000 ) ) ;
#69 = CARTESIAN_POINT ( 'NONE',  ( 12.69999999999999574, 12.69999999999999574, -12.69999999999999929 ) ) ;
#70 = CARTESIAN_POINT ( 'NONE',  ( 12.69999999999999574, 12.69999999999999574, -12.69999999999999929 ) ) ;
#71 = LINE ( 'NONE', #179, #299 ) ;
#72 =( NAMED_UNIT ( * ) SI_UNIT ( $, .STERADIAN. ) SOLID_ANGLE_UNIT ( ) );
#73 = CARTESIAN_POINT ( 'NONE',  ( 12.69999999999999574, 12.69999999999999574, 12.69999999999999929 ) ) ;
#74 = DIRECTION ( 'NONE',  ( -2.220446049250312588E-16, 1.000000000000000000, 0.000000000000000000 ) ) ;
#75 = CARTESIAN_POINT ( 'NONE',  ( -12.69999999999999751, -12.69999999999999929, 12.69999999999999929 ) ) ;
#76 = CARTESIAN_POINT ( 'NONE',  ( 12.69999999999999574, 12.69999999999999574, 12.69999999999999929 ) ) ;
#77 = CC_DESIGN_PERSON_AND_ORGANIZATION_ASSIGNMENT ( #114, #33, ( #25 ) ) ;
#78 = VECTOR ( 'NONE', #297, 999.9999999999998863 ) ;
#79 = DIRECTION ( 'NONE',  ( 0.7071067811865475727, -0.7071067811865475727, 0.000000000000000000 ) ) ;
#80 = VECTOR ( 'NONE', #18, 1000.000000000000000 ) ;
#81 = ORIENTED_EDGE ( 'NONE', *, *, #117, .F. ) ;
#82 = DATE_AND_TIME ( #32, #99 ) ;
#83 = EDGE_LOOP ( 'NONE', ( #39, #257, #87, #254 ) ) ;
#84 = COORDINATED_UNIVERSAL_TIME_OFFSET ( 8, 0, .AHEAD. ) ;
#85 = ADVANCED_FACE ( 'NONE', ( #172 ), #16, .F. ) ;
#86 = VERTEX_POINT ( 'NONE', #97 ) ;
#87 = ORIENTED_EDGE ( 'NONE', *, *, #251, .T. ) ;
#88 =( GEOMETRIC_REPRESENTATION_CONTEXT ( 3 ) GLOBAL_UNCERTAINTY_ASSIGNED_CONTEXT ( ( #250 ) ) GLOBAL_UNIT_ASSIGNED_CONTEXT ( ( #96, #295, #72 ) ) REPRESENTATION_CONTEXT ( 'NONE', 'WORKASPACE' ) );
#89 = CARTESIAN_POINT ( 'NONE',  ( 12.69999999999999929, 12.69999999999999929, -12.69999999999999929 ) ) ;
#90 = DIRECTION ( 'NONE',  ( -0.7071067811865475727, 0.7071067811865475727, 0.000000000000000000 ) ) ;
#91 = DIRECTION ( 'NONE',  ( -1.000000000000000000, 0.000000000000000000, 0.000000000000000000 ) ) ;
#92 = LINE ( 'NONE', #89, #112 ) ;
#93 = DESIGN_CONTEXT ( 'detailed design', #288, 'design' ) ;
#94 = CARTESIAN_POINT ( 'NONE',  ( 0.000000000000000000, 0.000000000000000000, -12.69999999999999929 ) ) ;
#95 = CARTESIAN_POINT ( 'NONE',  ( 12.69999999999999574, 12.69999999999999574, 12.69999999999999929 ) ) ;
#96 =( LENGTH_UNIT ( ) NAMED_UNIT ( * ) SI_UNIT ( .MILLI., .METRE. ) );
#97 = CARTESIAN_POINT ( 'NONE',  ( -12.69999999999999751, -12.69999999999999929, 12.69999999999999929 ) ) ;
#98 = FACE_OUTER_BOUND ( 'NONE', #137, .T. ) ;
#99 = LOCAL_TIME ( 11, 14, 9.000000000000000000, #308 ) ;
#100 = LINE ( 'NONE', #76, #256 ) ;
#101 = CARTESIAN_POINT ( 'NONE',  ( 12.69999999999999929, 12.69999999999999929, 12.69999999999999929 ) ) ;
#102 = EDGE_CURVE ( 'NONE', #244, #160, #92, .T. ) ;
#103 = CALENDAR_DATE ( 2020, 22, 12 ) ;
#104 = EDGE_LOOP ( 'NONE', ( #133, #165, #312, #174 ) ) ;
#105 = APPROVAL_DATE_TIME ( #65, #48 ) ;
#106 = VERTEX_POINT ( 'NONE', #47 ) ;
#107 = ORIENTED_EDGE ( 'NONE', *, *, #117, .T. ) ;
#108 = SECURITY_CLASSIFICATION_LEVEL ( 'unclassified' ) ;
#109 = PRODUCT_RELATED_PRODUCT_CATEGORY ( 'detail', '', ( #128 ) ) ;
#110 = ADVANCED_FACE ( 'NONE', ( #238 ), #193, .F. ) ;
#111 = VERTEX_POINT ( 'NONE', #146 ) ;
#112 = VECTOR ( 'NONE', #269, 1000.000000000000000 ) ;
#113 = LINE ( 'NONE', #70, #191 ) ;
#114 = PERSON_AND_ORGANIZATION ( #29, #42 ) ;
#115 = DIRECTION ( 'NONE',  ( 0.000000000000000000, 0.000000000000000000, 1.000000000000000000 ) ) ;
#116 = DIRECTION ( 'NONE',  ( 1.000000000000000000, 0.000000000000000000, 0.000000000000000000 ) ) ;
#117 = EDGE_CURVE ( 'NONE', #111, #86, #204, .T. ) ;
#118 = FACE_OUTER_BOUND ( 'NONE', #38, .T. ) ;
#119 = AXIS2_PLACEMENT_3D ( 'NONE', #249, #26, #127 ) ;
#120 = AXIS2_PLACEMENT_3D ( 'NONE', #199, #124, #116 ) ;
#121 = CARTESIAN_POINT ( 'NONE',  ( 12.69999999999999574, 12.69999999999999574, 12.69999999999999929 ) ) ;
#122 = CARTESIAN_POINT ( 'NONE',  ( -12.69999999999999751, -12.69999999999999929, 12.69999999999999929 ) ) ;
#123 = EDGE_CURVE ( 'NONE', #234, #106, #262, .T. ) ;
#124 = DIRECTION ( 'NONE',  ( -0.000000000000000000, 0.000000000000000000, 1.000000000000000000 ) ) ;
#125 = LINE ( 'NONE', #226, #2 ) ;
#126 = PLANE ( 'NONE',  #152 ) ;
#127 = DIRECTION ( 'NONE',  ( 0.000000000000000000, 0.000000000000000000, 1.000000000000000000 ) ) ;
#128 = PRODUCT ( 'BK7-LPBSC-25.4-1064', 'BK7-LPBSC-25.4-1064', '', ( #293 ) ) ;
#129 = CARTESIAN_POINT ( 'NONE',  ( -12.69999999999999574, -12.69999999999999396, -12.69999999999999929 ) ) ;
#130 = VECTOR ( 'NONE', #169, 1000.000000000000000 ) ;
#131 = ORIENTED_EDGE ( 'NONE', *, *, #63, .T. ) ;
#132 = PERSON_AND_ORGANIZATION ( #29, #42 ) ;
#133 = ORIENTED_EDGE ( 'NONE', *, *, #63, .F. ) ;
#134 = ADVANCED_FACE ( 'NONE', ( #140 ), #243, .T. ) ;
#135 = APPROVAL_DATE_TIME ( #61, #164 ) ;
#136 = LOCAL_TIME ( 11, 14, 9.000000000000000000, #235 ) ;
#137 = EDGE_LOOP ( 'NONE', ( #289, #14, #81, #7 ) ) ;
#138 = LINE ( 'NONE', #296, #282 ) ;
#139 = PERSON_AND_ORGANIZATION_ROLE ( 'design_supplier' ) ;
#140 = FACE_OUTER_BOUND ( 'NONE', #20, .T. ) ;
#141 = APPROVAL_ROLE ( '' ) ;
#142 = EDGE_CURVE ( 'NONE', #234, #163, #19, .T. ) ;
#143 = LINE ( 'NONE', #220, #34 ) ;
#144 = CARTESIAN_POINT ( 'NONE',  ( -12.70000000000000284, 12.70000000000000284, 12.69999999999999929 ) ) ;
#145 = APPROVAL ( #183, 'UNSPECIFIED' ) ;
#146 = CARTESIAN_POINT ( 'NONE',  ( 12.69999999999999929, 12.69999999999999929, 12.69999999999999929 ) ) ;
#147 = CARTESIAN_POINT ( 'NONE',  ( -12.69999999999999574, -12.69999999999999396, -12.69999999999999929 ) ) ;
#148 = CARTESIAN_POINT ( 'NONE',  ( 12.69999999999999929, 12.69999999999999929, 12.69999999999999929 ) ) ;
#149 = EDGE_CURVE ( 'NONE', #163, #321, #71, .T. ) ;
#150 = LINE ( 'NONE', #245, #28 ) ;
#151 = EDGE_CURVE ( 'NONE', #86, #62, #302, .T. ) ;
#152 = AXIS2_PLACEMENT_3D ( 'NONE', #101, #79, #303 ) ;
#153 = CARTESIAN_POINT ( 'NONE',  ( 0.000000000000000000, 0.000000000000000000, 12.69999999999999929 ) ) ;
#154 = DIRECTION ( 'NONE',  ( -0.000000000000000000, 0.000000000000000000, 1.000000000000000000 ) ) ;
#155 = CARTESIAN_POINT ( 'NONE',  ( 0.000000000000000000, 0.000000000000000000, 0.000000000000000000 ) ) ;
#156 = ADVANCED_FACE ( 'NONE', ( #178 ), #229, .T. ) ;
#157 = ORIENTED_EDGE ( 'NONE', *, *, #291, .T. ) ;
#158 = APPROVAL_ROLE ( '' ) ;
#159 = APPROVAL_STATUS ( 'not_yet_approved' ) ;
#160 = VERTEX_POINT ( 'NONE', #207 ) ;
#161 = AXIS2_PLACEMENT_3D ( 'NONE', #122, #68, #171 ) ;
#162 = CC_DESIGN_APPROVAL ( #145, ( #265 ) ) ;
#163 = VERTEX_POINT ( 'NONE', #54 ) ;
#164 = APPROVAL ( #159, 'UNSPECIFIED' ) ;
#165 = ORIENTED_EDGE ( 'NONE', *, *, #294, .F. ) ;
#166 = DIRECTION ( 'NONE',  ( 1.000000000000000000, -2.220446049250312588E-16, 0.000000000000000000 ) ) ;
#167 = APPROVAL_STATUS ( 'not_yet_approved' ) ;
#168 = AXIS2_PLACEMENT_3D ( 'NONE', #95, #201, #221 ) ;
#169 = DIRECTION ( 'NONE',  ( 0.000000000000000000, 0.000000000000000000, -1.000000000000000000 ) ) ;
#170 = APPROVAL_PERSON_ORGANIZATION ( #253, #145, #158 ) ;
#171 = DIRECTION ( 'NONE',  ( 0.000000000000000000, -0.000000000000000000, 1.000000000000000000 ) ) ;
#172 = FACE_OUTER_BOUND ( 'NONE', #104, .T. ) ;
#173 = PLANE ( 'NONE',  #248 ) ;
#174 = ORIENTED_EDGE ( 'NONE', *, *, #123, .T. ) ;
#175 = DIRECTION ( 'NONE',  ( -2.220446049250312588E-16, 1.000000000000000000, 0.000000000000000000 ) ) ;
#176 = CARTESIAN_POINT ( 'NONE',  ( 12.69999999999999929, -12.69999999999999929, -12.69999999999999929 ) ) ;
#177 = LINE ( 'NONE', #1, #80 ) ;
#178 = FACE_OUTER_BOUND ( 'NONE', #285, .T. ) ;
#179 = CARTESIAN_POINT ( 'NONE',  ( -12.69999999999999574, -12.69999999999999396, 12.69999999999999929 ) ) ;
#180 = EDGE_CURVE ( 'NONE', #160, #192, #27, .T. ) ;
#181 = FACE_OUTER_BOUND ( 'NONE', #83, .T. ) ;
#182 = CC_DESIGN_PERSON_AND_ORGANIZATION_ASSIGNMENT ( #13, #212, ( #265 ) ) ;
#183 = APPROVAL_STATUS ( 'not_yet_approved' ) ;
#184 = AXIS2_PLACEMENT_3D ( 'NONE', #292, #90, #43 ) ;
#185 = VERTEX_POINT ( 'NONE', #246 ) ;
#186 = ADVANCED_FACE ( 'NONE', ( #98 ), #126, .F. ) ;
#187 = CC_DESIGN_SECURITY_CLASSIFICATION ( #25, ( #265 ) ) ;
#188 = ORIENTED_EDGE ( 'NONE', *, *, #102, .T. ) ;
#189 = APPROVAL_ROLE ( '' ) ;
#190 = EDGE_LOOP ( 'NONE', ( #261, #36, #210 ) ) ;
#191 = VECTOR ( 'NONE', #166, 1000.000000000000000 ) ;
#192 = VERTEX_POINT ( 'NONE', #227 ) ;
#193 = PLANE ( 'NONE',  #184 ) ;
#194 = APPLICATION_CONTEXT ( 'configuration controlled 3d designs of mechanical parts and assemblies' ) ;
#195 = CLOSED_SHELL ( 'NONE', ( #110, #211, #85, #134, #301 ) ) ;
#196 = DIRECTION ( 'NONE',  ( -2.220446049250312588E-16, 1.000000000000000000, 0.000000000000000000 ) ) ;
#197 = CC_DESIGN_PERSON_AND_ORGANIZATION_ASSIGNMENT ( #310, #252, ( #209 ) ) ;
#198 = VECTOR ( 'NONE', #230, 1000.000000000000000 ) ;
#199 = CARTESIAN_POINT ( 'NONE',  ( 0.000000000000000000, 0.000000000000000000, -12.69999999999999929 ) ) ;
#200 = PLANE ( 'NONE',  #120 ) ;
#201 = DIRECTION ( 'NONE',  ( 2.220446049250312588E-16, -1.000000000000000000, 0.000000000000000000 ) ) ;
#202 = LINE ( 'NONE', #69, #213 ) ;
#203 = EDGE_CURVE ( 'NONE', #185, #234, #100, .T. ) ;
#204 = LINE ( 'NONE', #148, #40 ) ;
#205 = VECTOR ( 'NONE', #208, 1000.000000000000000 ) ;
#206 = DIRECTION ( 'NONE',  ( 0.000000000000000000, 0.000000000000000000, 1.000000000000000000 ) ) ;
#207 = CARTESIAN_POINT ( 'NONE',  ( 12.69999999999999929, 12.69999999999999929, -12.69999999999999929 ) ) ;
#208 = DIRECTION ( 'NONE',  ( 1.000000000000000000, 0.000000000000000000, 0.000000000000000000 ) ) ;
#209 = PRODUCT_DEFINITION ( 'UNKNOWN', '', #265, #93 ) ;
#210 = ORIENTED_EDGE ( 'NONE', *, *, #247, .F. ) ;
#211 = ADVANCED_FACE ( 'NONE', ( #181 ), #55, .F. ) ;
#212 = PERSON_AND_ORGANIZATION_ROLE ( 'creator' ) ;
#213 = VECTOR ( 'NONE', #320, 999.9999999999998863 ) ;
#214 = ORIENTED_EDGE ( 'NONE', *, *, #151, .F. ) ;
#215 = SHAPE_DEFINITION_REPRESENTATION ( #53, #17 ) ;
#216 = ORIENTED_EDGE ( 'NONE', *, *, #275, .F. ) ;
#217 = ORIENTED_EDGE ( 'NONE', *, *, #142, .T. ) ;
#218 = AXIS2_PLACEMENT_3D ( 'NONE', #240, #115, #196 ) ;
#219 = VERTEX_POINT ( 'NONE', #279 ) ;
#220 = CARTESIAN_POINT ( 'NONE',  ( -12.69999999999999751, -12.69999999999999929, 12.69999999999999929 ) ) ;
#221 = DIRECTION ( 'NONE',  ( 0.000000000000000000, 0.000000000000000000, 1.000000000000000000 ) ) ;
#222 = CARTESIAN_POINT ( 'NONE',  ( 12.69999999999999929, 12.69999999999999929, 12.69999999999999929 ) ) ;
#223 = ORIENTED_EDGE ( 'NONE', *, *, #231, .T. ) ;
#224 = CC_DESIGN_PERSON_AND_ORGANIZATION_ASSIGNMENT ( #266, #6, ( #128 ) ) ;
#225 = CARTESIAN_POINT ( 'NONE',  ( 12.69999999999999929, -12.69999999999999929, 12.69999999999999929 ) ) ;
#226 = CARTESIAN_POINT ( 'NONE',  ( -12.69999999999999574, -12.69999999999999396, 12.69999999999999929 ) ) ;
#227 = CARTESIAN_POINT ( 'NONE',  ( -12.69999999999999751, -12.69999999999999929, -12.69999999999999929 ) ) ;
#228 = CC_DESIGN_DATE_AND_TIME_ASSIGNMENT ( #82, #59, ( #25 ) ) ;
#229 = PLANE ( 'NONE',  #23 ) ;
#230 = DIRECTION ( 'NONE',  ( -2.220446049250312588E-16, 1.000000000000000000, 0.000000000000000000 ) ) ;
#231 = EDGE_CURVE ( 'NONE', #321, #219, #57, .T. ) ;
#232 = LOCAL_TIME ( 11, 14, 9.000000000000000000, #84 ) ;
#233 = APPLICATION_PROTOCOL_DEFINITION ( 'international standard', 'config_control_design', 1994, #194 ) ;
#234 = VERTEX_POINT ( 'NONE', #73 ) ;
#235 = COORDINATED_UNIVERSAL_TIME_OFFSET ( 8, 0, .AHEAD. ) ;
#236 = ORIENTED_EDGE ( 'NONE', *, *, #8, .T. ) ;
#237 = ORIENTED_EDGE ( 'NONE', *, *, #21, .T. ) ;
#238 = FACE_OUTER_BOUND ( 'NONE', #242, .T. ) ;
#239 = DATE_AND_TIME ( #9, #304 ) ;
#240 = CARTESIAN_POINT ( 'NONE',  ( 0.000000000000000000, 0.000000000000000000, 12.69999999999999929 ) ) ;
#241 = DIRECTION ( 'NONE',  ( 0.000000000000000000, 0.000000000000000000, -1.000000000000000000 ) ) ;
#242 = EDGE_LOOP ( 'NONE', ( #216, #287, #217, #60 ) ) ;
#243 = PLANE ( 'NONE',  #218 ) ;
#244 = VERTEX_POINT ( 'NONE', #176 ) ;
#245 = CARTESIAN_POINT ( 'NONE',  ( -12.69999999999999751, -12.69999999999999929, -12.69999999999999929 ) ) ;
#246 = CARTESIAN_POINT ( 'NONE',  ( -12.70000000000000284, 12.70000000000000284, 12.69999999999999929 ) ) ;
#247 = EDGE_CURVE ( 'NONE', #192, #244, #150, .T. ) ;
#248 = AXIS2_PLACEMENT_3D ( 'NONE', #94, #298, #175 ) ;
#249 = CARTESIAN_POINT ( 'NONE',  ( -12.69999999999999574, -12.69999999999999396, 12.69999999999999929 ) ) ;
#250 = UNCERTAINTY_MEASURE_WITH_UNIT (LENGTH_MEASURE( 1.000000000000000082E-05 ), #96, 'distance_accuracy_value', 'NONE');
#251 = EDGE_CURVE ( 'NONE', #163, #185, #125, .T. ) ;
#252 = PERSON_AND_ORGANIZATION_ROLE ( 'creator' ) ;
#253 = PERSON_AND_ORGANIZATION ( #29, #42 ) ;
#254 = ORIENTED_EDGE ( 'NONE', *, *, #294, .T. ) ;
#255 = PERSON_AND_ORGANIZATION ( #29, #42 ) ;
#256 = VECTOR ( 'NONE', #277, 1000.000000000000000 ) ;
#257 = ORIENTED_EDGE ( 'NONE', *, *, #149, .F. ) ;
#258 = EDGE_CURVE ( 'NONE', #111, #160, #177, .T. ) ;
#259 = VECTOR ( 'NONE', #46, 1000.000000000000000 ) ;
#260 = ORIENTED_EDGE ( 'NONE', *, *, #142, .F. ) ;
#261 = ORIENTED_EDGE ( 'NONE', *, *, #180, .F. ) ;
#262 = LINE ( 'NONE', #66, #130 ) ;
#263 = DIRECTION ( 'NONE',  ( 1.000000000000000000, 0.000000000000000000, 0.000000000000000000 ) ) ;
#264 = PLANE ( 'NONE',  #161 ) ;
#265 = PRODUCT_DEFINITION_FORMATION_WITH_SPECIFIED_SOURCE ( 'ANY', '', #128, .NOT_KNOWN. ) ;
#266 = PERSON_AND_ORGANIZATION ( #29, #42 ) ;
#267 = ORIENTED_EDGE ( 'NONE', *, *, #8, .F. ) ;
#268 = LINE ( 'NONE', #222, #259 ) ;
#269 = DIRECTION ( 'NONE',  ( -0.000000000000000000, 1.000000000000000000, -0.000000000000000000 ) ) ;
#270 = CARTESIAN_POINT ( 'NONE',  ( 12.69999999999999929, 12.69999999999999929, 12.69999999999999929 ) ) ;
#271 = APPROVAL_PERSON_ORGANIZATION ( #132, #164, #189 ) ;
#272 = FACE_OUTER_BOUND ( 'NONE', #64, .T. ) ;
#273 = MANIFOLD_SOLID_BREP ( 'Í¹Ì¨-À', #4 ) ;
#274 = DIRECTION ( 'NONE',  ( 0.000000000000000000, 0.000000000000000000, -1.000000000000000000 ) ) ;
#275 = EDGE_CURVE ( 'NONE', #106, #321, #202, .T. ) ;
#276 = CC_DESIGN_PERSON_AND_ORGANIZATION_ASSIGNMENT ( #284, #139, ( #265 ) ) ;
#277 = DIRECTION ( 'NONE',  ( 1.000000000000000000, -2.220446049250312588E-16, 0.000000000000000000 ) ) ;
#278 = VECTOR ( 'NONE', #241, 1000.000000000000000 ) ;
#279 = CARTESIAN_POINT ( 'NONE',  ( -12.70000000000000284, 12.70000000000000284, -12.69999999999999929 ) ) ;
#280 = MANIFOLD_SOLID_BREP ( '¾µÏ', #195 ) ;
#281 = CALENDAR_DATE ( 2020, 22, 12 ) ;
#282 = VECTOR ( 'NONE', #45, 1000.000000000000000 ) ;
#283 = ORIENTED_EDGE ( 'NONE', *, *, #291, .F. ) ;
#284 = PERSON_AND_ORGANIZATION ( #29, #42 ) ;
#285 = EDGE_LOOP ( 'NONE', ( #107, #319, #157 ) ) ;
#286 = CALENDAR_DATE ( 2020, 22, 12 ) ;
#287 = ORIENTED_EDGE ( 'NONE', *, *, #123, .F. ) ;
#288 = APPLICATION_CONTEXT ( 'configuration controlled 3d designs of mechanical parts and assemblies' ) ;
#289 = ORIENTED_EDGE ( 'NONE', *, *, #180, .T. ) ;
#290 = ADVANCED_FACE ( 'NONE', ( #318 ), #51, .F. ) ;
#291 = EDGE_CURVE ( 'NONE', #62, #111, #268, .T. ) ;
#292 = CARTESIAN_POINT ( 'NONE',  ( 12.69999999999999574, 12.69999999999999574, 12.69999999999999929 ) ) ;
#293 = MECHANICAL_CONTEXT ( 'NONE', #194, 'mechanical' ) ;
#294 = EDGE_CURVE ( 'NONE', #185, #219, #300, .T. ) ;
#295 =( NAMED_UNIT ( * ) PLANE_ANGLE_UNIT ( ) SI_UNIT ( $, .RADIAN. ) );
#296 = CARTESIAN_POINT ( 'NONE',  ( 12.69999999999999929, -12.69999999999999929, 12.69999999999999929 ) ) ;
#297 = DIRECTION ( 'NONE',  ( -0.7071067811865475727, -0.7071067811865475727, 0.000000000000000000 ) ) ;
#298 = DIRECTION ( 'NONE',  ( 0.000000000000000000, 0.000000000000000000, 1.000000000000000000 ) ) ;
#299 = VECTOR ( 'NONE', #274, 1000.000000000000000 ) ;
#300 = LINE ( 'NONE', #144, #278 ) ;
#301 = ADVANCED_FACE ( 'NONE', ( #272 ), #173, .F. ) ;
#302 = LINE ( 'NONE', #75, #205 ) ;
#303 = DIRECTION ( 'NONE',  ( 0.7071067811865474617, 0.7071067811865474617, 0.000000000000000000 ) ) ;
#304 = LOCAL_TIME ( 11, 14, 9.000000000000000000, #41 ) ;
#305 = ADVANCED_FACE ( 'NONE', ( #15 ), #200, .F. ) ;
#306 = DATE_TIME_ROLE ( 'creation_date' ) ;
#307 = ORIENTED_EDGE ( 'NONE', *, *, #251, .F. ) ;
#308 = COORDINATED_UNIVERSAL_TIME_OFFSET ( 8, 0, .AHEAD. ) ;
#309 = AXIS2_PLACEMENT_3D ( 'NONE', #155, #315, #263 ) ;
#310 = PERSON_AND_ORGANIZATION ( #29, #42 ) ;
#311 = EDGE_LOOP ( 'NONE', ( #188, #314, #283, #236 ) ) ;
#312 = ORIENTED_EDGE ( 'NONE', *, *, #203, .T. ) ;
#313 = CC_DESIGN_DATE_AND_TIME_ASSIGNMENT ( #239, #306, ( #209 ) ) ;
#314 = ORIENTED_EDGE ( 'NONE', *, *, #258, .F. ) ;
#315 = DIRECTION ( 'NONE',  ( 0.000000000000000000, 0.000000000000000000, 1.000000000000000000 ) ) ;
#316 = DIRECTION ( 'NONE',  ( -0.7071067811865474617, -0.7071067811865474617, 0.000000000000000000 ) ) ;
#317 = LOCAL_TIME ( 11, 14, 9.000000000000000000, #5 ) ;
#318 = FACE_OUTER_BOUND ( 'NONE', #311, .T. ) ;
#319 = ORIENTED_EDGE ( 'NONE', *, *, #151, .T. ) ;
#320 = DIRECTION ( 'NONE',  ( -0.7071067811865475727, -0.7071067811865475727, 0.000000000000000000 ) ) ;
#321 = VERTEX_POINT ( 'NONE', #147 ) ;
ENDSEC;
END-ISO-10303-21;
